Jump to content

Need a little help with some Guitar Chords


Silberio
 Share

Recommended Posts

Howdy.

I've been searching for the guitar chords of the song Fortunate Son, and the only thing I find is this:

Chords: E e

G5 355xxx

F5 133xxx

C5 x355xx

D5 x577xx

Intro:

-----

4/4 N.C

e-||--------------|---------------|--------------|-------------------||

B-||-------8~~----|-------6~~-----|-------5~~----|-----3-------||

G-||:-------------|---------------|--------------|------------------:||

D-||:--/9~~-------|---/7~~--------|--3/5~~-------|-/3--------:||

A-||--------------|---------------|--------------|-----------1-------||

E-||--------------|---------------|--------------|--------------3~--||

Verse1:

------

G5 F5

Some folks .....

C5 G5

ooh, ......

G5 F5

And when .......

C5 G5

they point ......

Chorus:

------

G5 D5 C5 G5

It ain't me, ....

G5 D5 C5 G5

It ain't me, .....

Verse2:

------

Chorus:

------

Interlude:

---------

N.C

e-||-------------|--------------|--------------|----------------||

B-||---/6--------|--/5-------5--|-\1-----------|-1---/3------||

G-||:--/7--------|--/6-------6--|-\2-----------|-2---/4-----:||

D-||:------------|--------------|--------------|--------------:||

A-||-------------|--------------|--------------|---------------||

E-||-------------|--------------|--------------|---------------||

But I dont kinda understand all that (Yes, I'm a noob).

Could anyone help me with this?

Thanks.

Link to comment
Share on other sites

Thanks, I found lots.

But I still dont get it :/

Well.. I'll try and help.

e|-----------------------------|

B|-----------------------------|

G|-----0----------0------------|

D|-------0----------0----------|

A|-----------------------------|

E|-3-3--------3-3--------------|

Okay, the numbers on the line is the fret, so 3 is the 3rd fret. and the E string is the lowest, or the top. and when its a 0, you just hit it without putting your finger on it or anything..

Well, I hope you got a little out of that.

Link to comment
Share on other sites

Join the conversation

You can post now and register later. If you have an account, sign in now to post with your account.

Guest
Reply to this topic...

×   Pasted as rich text.   Paste as plain text instead

  Only 75 emoji are allowed.

×   Your link has been automatically embedded.   Display as a link instead

×   Your previous content has been restored.   Clear editor

×   You cannot paste images directly. Upload or insert images from URL.

Loading...
 Share

×
×
  • Create New...